ISO-10303-21;
HEADER;
/* Generated by software containing ST-Developer
 * from STEP Tools, Inc. (www.steptools.com) 
 */

FILE_DESCRIPTION(
/* description */ (''),
/* implementation_level */ '2;1');

FILE_NAME(
/* name */ '204',
/* time_stamp */ '2018-11-16T11:06:21+08:00',
/* author */ (''),
/* organization */ (''),
/* preprocessor_version */ 'ST-DEVELOPER v9',
/* originating_system */ 'UGS - NX 4.0',
/* authorisation */ '');

FILE_SCHEMA (('CONFIG_CONTROL_DESIGN'));
ENDSEC;

DATA;
#10=SHAPE_REPRESENTATION_RELATIONSHIP('None',
'relationship between Admi3E0721ip-None and Admi3E0721ip-None',#94,#11);
#11=ADVANCED_BREP_SHAPE_REPRESENTATION('Admi3E0721ip-None',(#95),#289);
#12=CC_DESIGN_APPROVAL(#24,(#82));
#13=CC_DESIGN_APPROVAL(#25,(#84));
#14=CC_DESIGN_APPROVAL(#26,(#31));
#15=APPROVAL_PERSON_ORGANIZATION(#69,#24,#18);
#16=APPROVAL_PERSON_ORGANIZATION(#70,#25,#19);
#17=APPROVAL_PERSON_ORGANIZATION(#71,#26,#20);
#18=APPROVAL_ROLE('approver');
#19=APPROVAL_ROLE('approver');
#20=APPROVAL_ROLE('approver');
#21=APPROVAL_DATE_TIME(#39,#24);
#22=APPROVAL_DATE_TIME(#40,#25);
#23=APPROVAL_DATE_TIME(#41,#26);
#24=APPROVAL(#27,' ');
#25=APPROVAL(#28,' ');
#26=APPROVAL(#29,' ');
#27=APPROVAL_STATUS('not_yet_approved');
#28=APPROVAL_STATUS('not_yet_approved');
#29=APPROVAL_STATUS('not_yet_approved');
#30=CC_DESIGN_SECURITY_CLASSIFICATION(#31,(#84));
#31=SECURITY_CLASSIFICATION(' ',' ',#32);
#32=SECURITY_CLASSIFICATION_LEVEL('confidential');
#33=CC_DESIGN_DATE_AND_TIME_ASSIGNMENT(#37,#35,(#82));
#34=CC_DESIGN_DATE_AND_TIME_ASSIGNMENT(#38,#36,(#31));
#35=DATE_TIME_ROLE('creation_date');
#36=DATE_TIME_ROLE('classification_date');
#37=DATE_AND_TIME(#52,#42);
#38=DATE_AND_TIME(#53,#43);
#39=DATE_AND_TIME(#54,#44);
#40=DATE_AND_TIME(#55,#45);
#41=DATE_AND_TIME(#56,#46);
#42=LOCAL_TIME(0,0,0.,#47);
#43=LOCAL_TIME(0,0,0.,#48);
#44=LOCAL_TIME(0,0,0.,#49);
#45=LOCAL_TIME(0,0,0.,#50);
#46=LOCAL_TIME(0,0,0.,#51);
#47=COORDINATED_UNIVERSAL_TIME_OFFSET(0,0,.BEHIND.);
#48=COORDINATED_UNIVERSAL_TIME_OFFSET(0,0,.BEHIND.);
#49=COORDINATED_UNIVERSAL_TIME_OFFSET(0,0,.BEHIND.);
#50=COORDINATED_UNIVERSAL_TIME_OFFSET(0,0,.BEHIND.);
#51=COORDINATED_UNIVERSAL_TIME_OFFSET(0,0,.BEHIND.);
#52=CALENDAR_DATE(0,1,1);
#53=CALENDAR_DATE(0,1,1);
#54=CALENDAR_DATE(0,1,1);
#55=CALENDAR_DATE(0,1,1);
#56=CALENDAR_DATE(0,1,1);
#57=CC_DESIGN_PERSON_AND_ORGANIZATION_ASSIGNMENT(#65,#61,(#82,#84));
#58=CC_DESIGN_PERSON_AND_ORGANIZATION_ASSIGNMENT(#66,#62,(#86));
#59=CC_DESIGN_PERSON_AND_ORGANIZATION_ASSIGNMENT(#67,#63,(#84));
#60=CC_DESIGN_PERSON_AND_ORGANIZATION_ASSIGNMENT(#68,#64,(#31));
#61=PERSON_AND_ORGANIZATION_ROLE('creator');
#62=PERSON_AND_ORGANIZATION_ROLE('design_owner');
#63=PERSON_AND_ORGANIZATION_ROLE('design_supplier');
#64=PERSON_AND_ORGANIZATION_ROLE('classification_officer');
#65=PERSON_AND_ORGANIZATION(#79,#72);
#66=PERSON_AND_ORGANIZATION(#79,#73);
#67=PERSON_AND_ORGANIZATION(#79,#74);
#68=PERSON_AND_ORGANIZATION(#79,#75);
#69=PERSON_AND_ORGANIZATION(#79,#76);
#70=PERSON_AND_ORGANIZATION(#79,#77);
#71=PERSON_AND_ORGANIZATION(#79,#78);
#72=ORGANIZATION(' ',' ',' ');
#73=ORGANIZATION(' ',' ',' ');
#74=ORGANIZATION(' ',' ',' ');
#75=ORGANIZATION(' ',' ',' ');
#76=ORGANIZATION(' ',' ',' ');
#77=ORGANIZATION(' ',' ',' ');
#78=ORGANIZATION(' ',' ',' ');
#79=PERSON(' ',' ',' ',(' '),$,$);
#80=SHAPE_DEFINITION_REPRESENTATION(#81,#94);
#81=PRODUCT_DEFINITION_SHAPE('','',#82);
#82=PRODUCT_DEFINITION(' ','',#84,#83);
#83=DESIGN_CONTEXT('',#93,'design');
#84=PRODUCT_DEFINITION_FORMATION_WITH_SPECIFIED_SOURCE(' ',' ',#86,.NOT_KNOWN.);
#85=PRODUCT_RELATED_PRODUCT_CATEGORY('detail','',(#86));
#86=PRODUCT('Admi3E0721ip','Admi3E0721ip',' ',(#91));
#87=PRODUCT_CATEGORY_RELATIONSHIP(' ',' ',#89,#90);
#88=PRODUCT_CATEGORY_RELATIONSHIP('','',#90,#85);
#89=PRODUCT_CATEGORY('part',' ');
#90=PRODUCT_CATEGORY(' ','');
#91=MECHANICAL_CONTEXT(' ',#93,'mechanical');
#92=APPLICATION_PROTOCOL_DEFINITION('international standard',
'config_control_design',1994,#93);
#93=APPLICATION_CONTEXT(
'configuration controlled 3D designs of mechanical parts and assemblies
');
#94=SHAPE_REPRESENTATION('Admi3E0721ip-None',(#174),#289);
#95=MANIFOLD_SOLID_BREP('',#96);
#96=CLOSED_SHELL('',(#105,#106,#107,#108,#109,#110,#111));
#97=CONICAL_SURFACE('',#183,32.5780048684965,58.8844405525215);
#98=CYLINDRICAL_SURFACE('',#182,23.);
#99=CYLINDRICAL_SURFACE('',#186,38.5);
#100=PLANE('',#178);
#101=PLANE('',#185);
#102=FACE_OUTER_BOUND('',#128,.T.);
#103=FACE_OUTER_BOUND('',#134,.T.);
#104=FACE_OUTER_BOUND('',#135,.T.);
#105=ADVANCED_FACE('',(#114,#115),#112,.T.);
#106=ADVANCED_FACE('',(#116,#102),#100,.F.);
#107=ADVANCED_FACE('',(#117,#118),#113,.T.);
#108=ADVANCED_FACE('',(#119,#120),#98,.F.);
#109=ADVANCED_FACE('',(#121,#103),#97,.F.);
#110=ADVANCED_FACE('',(#104,#122),#101,.T.);
#111=ADVANCED_FACE('',(#123,#124),#99,.T.);
#112=(
BOUNDED_SURFACE()
B_SPLINE_SURFACE(3,3,((#218,#219,#220,#221,#222,#223,#224),(#225,#226,#227,
#228,#229,#230,#231),(#232,#233,#234,#235,#236,#237,#238),(#239,#240,#241,
#242,#243,#244,#245)),.UNSPECIFIED.,.F.,.T.,.F.)
B_SPLINE_SURFACE_WITH_KNOTS((4,4),(1,3,3,3,1),(0.,1.),(-0.5,0.,0.5,1.,1.5),
.UNSPECIFIED.)
GEOMETRIC_REPRESENTATION_ITEM()
RATIONAL_B_SPLINE_SURFACE(((1.,0.333333333333333,0.333333333333333,1.,0.333333333333333,
0.333333333333333,1.),(0.896551954744804,0.298850651581601,0.298850651581601,
0.896551954744804,0.298850651581601,0.298850651581601,0.896551954744804),
(0.896551954744804,0.298850651581601,0.298850651581601,0.896551954744804,
0.298850651581601,0.298850651581601,0.896551954744804),(1.,0.333333333333333,
0.333333333333333,1.,0.333333333333333,0.333333333333333,1.)))
REPRESENTATION_ITEM('')
SURFACE()
);
#113=(
BOUNDED_SURFACE()
B_SPLINE_SURFACE(3,3,((#251,#252,#253,#254,#255,#256,#257),(#258,#259,#260,
#261,#262,#263,#264),(#265,#266,#267,#268,#269,#270,#271),(#272,#273,#274,
#275,#276,#277,#278)),.UNSPECIFIED.,.F.,.T.,.F.)
B_SPLINE_SURFACE_WITH_KNOTS((4,4),(1,3,3,3,1),(0.,1.),(-0.5,0.,0.5,1.,1.5),
.UNSPECIFIED.)
GEOMETRIC_REPRESENTATION_ITEM()
RATIONAL_B_SPLINE_SURFACE(((1.,0.333333333333333,0.333333333333333,1.,0.333333333333333,
0.333333333333333,1.),(0.895813787787794,0.298604595929265,0.298604595929265,
0.895813787787794,0.298604595929265,0.298604595929265,0.895813787787794),
(0.895813787787794,0.298604595929265,0.298604595929265,0.895813787787794,
0.298604595929265,0.298604595929265,0.895813787787794),(1.,0.333333333333333,
0.333333333333333,1.,0.333333333333333,0.333333333333333,1.)))
REPRESENTATION_ITEM('')
SURFACE()
);
#114=FACE_BOUND('',#125,.T.);
#115=FACE_BOUND('',#126,.T.);
#116=FACE_BOUND('',#127,.T.);
#117=FACE_BOUND('',#129,.T.);
#118=FACE_BOUND('',#130,.T.);
#119=FACE_BOUND('',#131,.T.);
#120=FACE_BOUND('',#132,.T.);
#121=FACE_BOUND('',#133,.T.);
#122=FACE_BOUND('',#136,.T.);
#123=FACE_BOUND('',#137,.T.);
#124=FACE_BOUND('',#138,.T.);
#125=EDGE_LOOP('',(#139));
#126=EDGE_LOOP('',(#140));
#127=EDGE_LOOP('',(#141));
#128=EDGE_LOOP('',(#142));
#129=EDGE_LOOP('',(#143));
#130=EDGE_LOOP('',(#144));
#131=EDGE_LOOP('',(#145));
#132=EDGE_LOOP('',(#146));
#133=EDGE_LOOP('',(#147));
#134=EDGE_LOOP('',(#148));
#135=EDGE_LOOP('',(#149));
#136=EDGE_LOOP('',(#150));
#137=EDGE_LOOP('',(#151));
#138=EDGE_LOOP('',(#152));
#139=ORIENTED_EDGE('',*,*,#160,.T.);
#140=ORIENTED_EDGE('',*,*,#161,.T.);
#141=ORIENTED_EDGE('',*,*,#162,.T.);
#142=ORIENTED_EDGE('',*,*,#160,.F.);
#143=ORIENTED_EDGE('',*,*,#163,.T.);
#144=ORIENTED_EDGE('',*,*,#162,.F.);
#145=ORIENTED_EDGE('',*,*,#164,.T.);
#146=ORIENTED_EDGE('',*,*,#165,.F.);
#147=ORIENTED_EDGE('',*,*,#164,.F.);
#148=ORIENTED_EDGE('',*,*,#163,.F.);
#149=ORIENTED_EDGE('',*,*,#166,.F.);
#150=ORIENTED_EDGE('',*,*,#165,.T.);
#151=ORIENTED_EDGE('',*,*,#161,.F.);
#152=ORIENTED_EDGE('',*,*,#166,.T.);
#153=VERTEX_POINT('',#215);
#154=VERTEX_POINT('',#217);
#155=VERTEX_POINT('',#247);
#156=VERTEX_POINT('',#250);
#157=VERTEX_POINT('',#280);
#158=VERTEX_POINT('',#282);
#159=VERTEX_POINT('',#286);
#160=EDGE_CURVE('',#153,#153,#167,.T.);
#161=EDGE_CURVE('',#154,#154,#168,.T.);
#162=EDGE_CURVE('',#155,#155,#169,.T.);
#163=EDGE_CURVE('',#156,#156,#170,.T.);
#164=EDGE_CURVE('',#157,#157,#171,.T.);
#165=EDGE_CURVE('',#158,#158,#172,.T.);
#166=EDGE_CURVE('',#159,#159,#173,.T.);
#167=CIRCLE('',#175,162.);
#168=CIRCLE('',#176,38.5);
#169=CIRCLE('',#177,149.526336538101);
#170=CIRCLE('',#179,32.5780048684965);
#171=CIRCLE('',#180,23.);
#172=CIRCLE('',#181,23.);
#173=CIRCLE('',#184,38.5);
#174=AXIS2_PLACEMENT_3D('',#213,#187,#188);
#175=AXIS2_PLACEMENT_3D('',#214,#189,#190);
#176=AXIS2_PLACEMENT_3D('',#216,#191,#192);
#177=AXIS2_PLACEMENT_3D('',#246,#193,#194);
#178=AXIS2_PLACEMENT_3D('',#248,#195,#196);
#179=AXIS2_PLACEMENT_3D('',#249,#197,#198);
#180=AXIS2_PLACEMENT_3D('',#279,#199,#200);
#181=AXIS2_PLACEMENT_3D('',#281,#201,#202);
#182=AXIS2_PLACEMENT_3D('',#283,#203,#204);
#183=AXIS2_PLACEMENT_3D('',#284,#205,#206);
#184=AXIS2_PLACEMENT_3D('',#285,#207,#208);
#185=AXIS2_PLACEMENT_3D('',#287,#209,#210);
#186=AXIS2_PLACEMENT_3D('',#288,#211,#212);
#187=DIRECTION('',(0.,0.,1.));
#188=DIRECTION('',(1.,0.,0.));
#189=DIRECTION('',(0.,0.,-1.));
#190=DIRECTION('',(-1.,0.,0.));
#191=DIRECTION('',(0.,0.,1.));
#192=DIRECTION('',(1.,0.,0.));
#193=DIRECTION('',(0.,0.,-1.));
#194=DIRECTION('',(-1.,0.,0.));
#195=DIRECTION('',(0.,0.,-1.));
#196=DIRECTION('',(-1.,0.,0.));
#197=DIRECTION('',(0.,0.,-1.));
#198=DIRECTION('',(1.,0.,0.));
#199=DIRECTION('',(0.,0.,1.));
#200=DIRECTION('',(-1.,0.,0.));
#201=DIRECTION('',(0.,0.,1.));
#202=DIRECTION('',(1.,0.,0.));
#203=DIRECTION('',(0.,0.,1.));
#204=DIRECTION('',(1.,0.,0.));
#205=DIRECTION('',(0.,0.,1.));
#206=DIRECTION('',(1.,0.,-2.46456323538665E-017));
#207=DIRECTION('',(0.,0.,1.));
#208=DIRECTION('',(-1.,0.,0.));
#209=DIRECTION('',(0.,0.,-1.));
#210=DIRECTION('',(-1.,0.,0.));
#211=DIRECTION('',(0.,0.,-1.));
#212=DIRECTION('',(-1.,0.,0.));
#213=CARTESIAN_POINT('',(0.,0.,0.));
#214=CARTESIAN_POINT('',(-112.437624007937,20.1884920634921,5.55111512312578E-014));
#215=CARTESIAN_POINT('',(-274.437624007937,20.1884920634921,5.55111512312578E-014));
#216=CARTESIAN_POINT('',(-112.437624007937,20.1884920634921,-112.966429777969));
#217=CARTESIAN_POINT('',(-73.9376240079365,20.1884920634921,-112.966429777969));
#218=CARTESIAN_POINT('',(-150.937624007937,20.1884920634921,-112.966429777969));
#219=CARTESIAN_POINT('',(-150.937624007937,97.1884920634921,-112.966429777969));
#220=CARTESIAN_POINT('',(-73.9376240079365,97.1884920634921,-112.966429777969));
#221=CARTESIAN_POINT('',(-73.9376240079365,20.1884920634921,-112.966429777969));
#222=CARTESIAN_POINT('',(-73.9376240079365,-56.811507936508,-112.966429777969));
#223=CARTESIAN_POINT('',(-150.937624007937,-56.811507936508,-112.966429777969));
#224=CARTESIAN_POINT('',(-150.937624007937,20.1884920634921,-112.966429777969));
#225=CARTESIAN_POINT('',(-212.201072394587,20.1884920634921,-102.050538755056));
#226=CARTESIAN_POINT('',(-212.201072394587,219.715388836792,-102.050538755056));
#227=CARTESIAN_POINT('',(-12.6741756212864,219.715388836792,-102.050538755056));
#228=CARTESIAN_POINT('',(-12.6741756212864,20.1884920634921,-102.050538755056));
#229=CARTESIAN_POINT('',(-12.6741756212864,-179.338404709808,-102.050538755056));
#230=CARTESIAN_POINT('',(-212.201072394587,-179.338404709808,-102.050538755056));
#231=CARTESIAN_POINT('',(-212.201072394587,20.1884920634921,-102.050538755056));
#232=CARTESIAN_POINT('',(-258.117727250785,20.1884920634921,-60.0502102817611));
#233=CARTESIAN_POINT('',(-258.117727250785,311.548698549188,-60.0502102817611));
#234=CARTESIAN_POINT('',(33.2424792349115,311.548698549188,-60.0502102817611));
#235=CARTESIAN_POINT('',(33.2424792349115,20.1884920634921,-60.0502102817612));
#236=CARTESIAN_POINT('',(33.2424792349115,-271.171714422204,-60.0502102817612));
#237=CARTESIAN_POINT('',(-258.117727250785,-271.171714422204,-60.0502102817612));
#238=CARTESIAN_POINT('',(-258.117727250785,20.1884920634921,-60.0502102817611));
#239=CARTESIAN_POINT('',(-274.437624007937,20.1884920634921,1.66533453693773E-013));
#240=CARTESIAN_POINT('',(-274.437624007936,344.188492063492,1.66533453693773E-013));
#241=CARTESIAN_POINT('',(49.5623759920635,344.188492063492,1.66533453693773E-013));
#242=CARTESIAN_POINT('',(49.5623759920635,20.1884920634921,1.66533453693773E-013));
#243=CARTESIAN_POINT('',(49.5623759920635,-303.811507936508,1.66533453693773E-013));
#244=CARTESIAN_POINT('',(-274.437624007936,-303.811507936508,1.66533453693773E-013));
#245=CARTESIAN_POINT('',(-274.437624007937,20.1884920634921,1.66533453693773E-013));
#246=CARTESIAN_POINT('',(-112.437624007937,20.1884920634921,5.55111512312578E-014));
#247=CARTESIAN_POINT('',(-261.963960546037,20.1884920634921,5.55111512312578E-014));
#248=CARTESIAN_POINT('',(-112.437624007937,20.1884920634921,5.55111512312578E-014));
#249=CARTESIAN_POINT('',(-112.437624007937,20.1884920634921,-101.779985468077));
#250=CARTESIAN_POINT('',(-79.85961913944,20.1884920634921,-101.779985468077));
#251=CARTESIAN_POINT('',(-261.963960546037,20.1884920634921,1.04083408558608E-013));
#252=CARTESIAN_POINT('',(-261.963960546037,319.241165139694,1.04083408558608E-013));
#253=CARTESIAN_POINT('',(37.0887125301643,319.241165139694,1.04083408558608E-013));
#254=CARTESIAN_POINT('',(37.0887125301643,20.1884920634921,1.04083408558608E-013));
#255=CARTESIAN_POINT('',(37.0887125301643,-278.86418101271,1.04083408558608E-013));
#256=CARTESIAN_POINT('',(-261.963960546037,-278.86418101271,1.04083408558608E-013));
#257=CARTESIAN_POINT('',(-261.963960546037,20.1884920634921,1.04083408558608E-013));
#258=CARTESIAN_POINT('',(-245.577364895608,20.1884920634921,-55.3127201675439));
#259=CARTESIAN_POINT('',(-245.577364895608,286.467973838835,-55.3127201675439));
#260=CARTESIAN_POINT('',(20.7021168797348,286.467973838835,-55.3127201675439));
#261=CARTESIAN_POINT('',(20.7021168797348,20.1884920634921,-55.3127201675439));
#262=CARTESIAN_POINT('',(20.7021168797348,-246.090989711851,-55.3127201675439));
#263=CARTESIAN_POINT('',(-245.577364895608,-246.090989711851,-55.3127201675439));
#264=CARTESIAN_POINT('',(-245.577364895608,20.1884920634921,-55.3127201675439));
#265=CARTESIAN_POINT('',(-202.060757142261,20.1884920634921,-93.1851689791145));
#266=CARTESIAN_POINT('',(-202.060757142261,199.434758332141,-93.1851689791145));
#267=CARTESIAN_POINT('',(-22.814490873612,199.434758332141,-93.1851689791145));
#268=CARTESIAN_POINT('',(-22.814490873612,20.1884920634921,-93.1851689791145));
#269=CARTESIAN_POINT('',(-22.814490873612,-159.057774205157,-93.1851689791145));
#270=CARTESIAN_POINT('',(-202.060757142261,-159.057774205157,-93.1851689791145));
#271=CARTESIAN_POINT('',(-202.060757142261,20.1884920634921,-93.1851689791145));
#272=CARTESIAN_POINT('',(-145.015628876433,20.1884920634921,-101.779985468077));
#273=CARTESIAN_POINT('',(-145.015628876433,85.3445018004852,-101.779985468077));
#274=CARTESIAN_POINT('',(-79.8596191394399,85.3445018004852,-101.779985468077));
#275=CARTESIAN_POINT('',(-79.8596191394399,20.1884920634921,-101.779985468077));
#276=CARTESIAN_POINT('',(-79.8596191394399,-44.9675176735011,-101.779985468077));
#277=CARTESIAN_POINT('',(-145.015628876433,-44.9675176735011,-101.779985468077));
#278=CARTESIAN_POINT('',(-145.015628876433,20.1884920634921,-101.779985468077));
#279=CARTESIAN_POINT('',(-112.437624007937,20.1884920634921,-107.561355525039));
#280=CARTESIAN_POINT('',(-135.437624007937,20.1884920634921,-107.561355525039));
#281=CARTESIAN_POINT('',(-112.437624007937,20.1884920634921,-126.935522920429));
#282=CARTESIAN_POINT('',(-89.4376240079365,20.1884920634921,-126.935522920429));
#283=CARTESIAN_POINT('',(-112.437624007937,20.1884920634921,-175.));
#284=CARTESIAN_POINT('',(-112.437624007937,20.1884920634921,-101.779985468077));
#285=CARTESIAN_POINT('',(-112.437624007937,20.1884920634921,-126.935522920429));
#286=CARTESIAN_POINT('',(-150.937624007937,20.1884920634921,-126.935522920429));
#287=CARTESIAN_POINT('',(-112.437624007937,20.1884920634921,-126.935522920429));
#288=CARTESIAN_POINT('',(-112.437624007937,20.1884920634921,-111.935522920429));
#289=(
GEOMETRIC_REPRESENTATION_CONTEXT(3)
GLOBAL_UNCERTAINTY_ASSIGNED_CONTEXT((#290))
GLOBAL_UNIT_ASSIGNED_CONTEXT((#296,#292,#291))
REPRESENTATION_CONTEXT('204','TOP_LEVEL_ASSEMBLY_PART')
);
#290=UNCERTAINTY_MEASURE_WITH_UNIT(LENGTH_MEASURE(0.0254),#296,
'DISTANCE_ACCURACY_VALUE','Maximum Tolerance applied to model');
#291=(
NAMED_UNIT(*)
SI_UNIT($,.STERADIAN.)
SOLID_ANGLE_UNIT()
);
#292=(
CONVERSION_BASED_UNIT('DEGREE',#294)
NAMED_UNIT(#293)
PLANE_ANGLE_UNIT()
);
#293=DIMENSIONAL_EXPONENTS(0.,0.,0.,0.,0.,0.,0.);
#294=PLANE_ANGLE_MEASURE_WITH_UNIT(PLANE_ANGLE_MEASURE(0.0174532925),#295);
#295=(
NAMED_UNIT(*)
PLANE_ANGLE_UNIT()
SI_UNIT($,.RADIAN.)
);
#296=(
LENGTH_UNIT()
NAMED_UNIT(*)
SI_UNIT(.MILLI.,.METRE.)
);
ENDSEC;
END-ISO-10303-21;
