ISO-10303-21;
HEADER;
/* Generated by software containing ST-Developer
 * from STEP Tools, Inc. (www.steptools.com) 
 */

FILE_DESCRIPTION(
/* description */ (''),
/* implementation_level */ '2;1');

FILE_NAME(
/* name */ '721',
/* time_stamp */ '2018-11-04T13:33:26+08:00',
/* author */ (''),
/* organization */ (''),
/* preprocessor_version */ 'ST-DEVELOPER v9',
/* originating_system */ 'UGS - NX 4.0',
/* authorisation */ '');

FILE_SCHEMA (('CONFIG_CONTROL_DESIGN'));
ENDSEC;

DATA;
#10=SHAPE_REPRESENTATION_RELATIONSHIP('None',
'relationship between Admi0F23gfo1-None and Admi0F23gfo1-None',#94,#11);
#11=ADVANCED_BREP_SHAPE_REPRESENTATION('Admi0F23gfo1-None',(#95),#289);
#12=CC_DESIGN_APPROVAL(#24,(#82));
#13=CC_DESIGN_APPROVAL(#25,(#84));
#14=CC_DESIGN_APPROVAL(#26,(#31));
#15=APPROVAL_PERSON_ORGANIZATION(#69,#24,#18);
#16=APPROVAL_PERSON_ORGANIZATION(#70,#25,#19);
#17=APPROVAL_PERSON_ORGANIZATION(#71,#26,#20);
#18=APPROVAL_ROLE('approver');
#19=APPROVAL_ROLE('approver');
#20=APPROVAL_ROLE('approver');
#21=APPROVAL_DATE_TIME(#39,#24);
#22=APPROVAL_DATE_TIME(#40,#25);
#23=APPROVAL_DATE_TIME(#41,#26);
#24=APPROVAL(#27,' ');
#25=APPROVAL(#28,' ');
#26=APPROVAL(#29,' ');
#27=APPROVAL_STATUS('not_yet_approved');
#28=APPROVAL_STATUS('not_yet_approved');
#29=APPROVAL_STATUS('not_yet_approved');
#30=CC_DESIGN_SECURITY_CLASSIFICATION(#31,(#84));
#31=SECURITY_CLASSIFICATION(' ',' ',#32);
#32=SECURITY_CLASSIFICATION_LEVEL('confidential');
#33=CC_DESIGN_DATE_AND_TIME_ASSIGNMENT(#37,#35,(#82));
#34=CC_DESIGN_DATE_AND_TIME_ASSIGNMENT(#38,#36,(#31));
#35=DATE_TIME_ROLE('creation_date');
#36=DATE_TIME_ROLE('classification_date');
#37=DATE_AND_TIME(#52,#42);
#38=DATE_AND_TIME(#53,#43);
#39=DATE_AND_TIME(#54,#44);
#40=DATE_AND_TIME(#55,#45);
#41=DATE_AND_TIME(#56,#46);
#42=LOCAL_TIME(0,0,0.,#47);
#43=LOCAL_TIME(0,0,0.,#48);
#44=LOCAL_TIME(0,0,0.,#49);
#45=LOCAL_TIME(0,0,0.,#50);
#46=LOCAL_TIME(0,0,0.,#51);
#47=COORDINATED_UNIVERSAL_TIME_OFFSET(0,0,.BEHIND.);
#48=COORDINATED_UNIVERSAL_TIME_OFFSET(0,0,.BEHIND.);
#49=COORDINATED_UNIVERSAL_TIME_OFFSET(0,0,.BEHIND.);
#50=COORDINATED_UNIVERSAL_TIME_OFFSET(0,0,.BEHIND.);
#51=COORDINATED_UNIVERSAL_TIME_OFFSET(0,0,.BEHIND.);
#52=CALENDAR_DATE(0,1,1);
#53=CALENDAR_DATE(0,1,1);
#54=CALENDAR_DATE(0,1,1);
#55=CALENDAR_DATE(0,1,1);
#56=CALENDAR_DATE(0,1,1);
#57=CC_DESIGN_PERSON_AND_ORGANIZATION_ASSIGNMENT(#65,#61,(#82,#84));
#58=CC_DESIGN_PERSON_AND_ORGANIZATION_ASSIGNMENT(#66,#62,(#86));
#59=CC_DESIGN_PERSON_AND_ORGANIZATION_ASSIGNMENT(#67,#63,(#84));
#60=CC_DESIGN_PERSON_AND_ORGANIZATION_ASSIGNMENT(#68,#64,(#31));
#61=PERSON_AND_ORGANIZATION_ROLE('creator');
#62=PERSON_AND_ORGANIZATION_ROLE('design_owner');
#63=PERSON_AND_ORGANIZATION_ROLE('design_supplier');
#64=PERSON_AND_ORGANIZATION_ROLE('classification_officer');
#65=PERSON_AND_ORGANIZATION(#79,#72);
#66=PERSON_AND_ORGANIZATION(#79,#73);
#67=PERSON_AND_ORGANIZATION(#79,#74);
#68=PERSON_AND_ORGANIZATION(#79,#75);
#69=PERSON_AND_ORGANIZATION(#79,#76);
#70=PERSON_AND_ORGANIZATION(#79,#77);
#71=PERSON_AND_ORGANIZATION(#79,#78);
#72=ORGANIZATION(' ',' ',' ');
#73=ORGANIZATION(' ',' ',' ');
#74=ORGANIZATION(' ',' ',' ');
#75=ORGANIZATION(' ',' ',' ');
#76=ORGANIZATION(' ',' ',' ');
#77=ORGANIZATION(' ',' ',' ');
#78=ORGANIZATION(' ',' ',' ');
#79=PERSON(' ',' ',' ',(' '),$,$);
#80=SHAPE_DEFINITION_REPRESENTATION(#81,#94);
#81=PRODUCT_DEFINITION_SHAPE('','',#82);
#82=PRODUCT_DEFINITION(' ','',#84,#83);
#83=DESIGN_CONTEXT('',#93,'design');
#84=PRODUCT_DEFINITION_FORMATION_WITH_SPECIFIED_SOURCE(' ',' ',#86,.NOT_KNOWN.);
#85=PRODUCT_RELATED_PRODUCT_CATEGORY('detail','',(#86));
#86=PRODUCT('Admi0F23gfo1','Admi0F23gfo1',' ',(#91));
#87=PRODUCT_CATEGORY_RELATIONSHIP(' ',' ',#89,#90);
#88=PRODUCT_CATEGORY_RELATIONSHIP('','',#90,#85);
#89=PRODUCT_CATEGORY('part',' ');
#90=PRODUCT_CATEGORY(' ','');
#91=MECHANICAL_CONTEXT(' ',#93,'mechanical');
#92=APPLICATION_PROTOCOL_DEFINITION('international standard',
'config_control_design',1994,#93);
#93=APPLICATION_CONTEXT(
'configuration controlled 3D designs of mechanical parts and assemblies
');
#94=SHAPE_REPRESENTATION('Admi0F23gfo1-None',(#174),#289);
#95=MANIFOLD_SOLID_BREP('',#96);
#96=CLOSED_SHELL('',(#105,#106,#107,#108,#109,#110,#111));
#97=CONICAL_SURFACE('',#185,30.7151316290076,53.6967594231577);
#98=CYLINDRICAL_SURFACE('',#182,38.5);
#99=CYLINDRICAL_SURFACE('',#184,23.);
#100=PLANE('',#181);
#101=PLANE('',#186);
#102=FACE_OUTER_BOUND('',#129,.T.);
#103=FACE_OUTER_BOUND('',#136,.T.);
#104=FACE_OUTER_BOUND('',#138,.T.);
#105=ADVANCED_FACE('',(#114,#115),#112,.T.);
#106=ADVANCED_FACE('',(#116,#117),#113,.T.);
#107=ADVANCED_FACE('',(#102,#118),#100,.F.);
#108=ADVANCED_FACE('',(#119,#120),#98,.T.);
#109=ADVANCED_FACE('',(#121,#122),#99,.F.);
#110=ADVANCED_FACE('',(#123,#103),#97,.F.);
#111=ADVANCED_FACE('',(#124,#104),#101,.T.);
#112=(
BOUNDED_SURFACE()
B_SPLINE_SURFACE(3,3,((#218,#219,#220,#221,#222,#223,#224),(#225,#226,#227,
#228,#229,#230,#231),(#232,#233,#234,#235,#236,#237,#238),(#239,#240,#241,
#242,#243,#244,#245)),.UNSPECIFIED.,.F.,.T.,.F.)
B_SPLINE_SURFACE_WITH_KNOTS((4,4),(1,3,3,3,1),(0.,1.),(-0.5,0.,0.5,1.,1.5),
.UNSPECIFIED.)
GEOMETRIC_REPRESENTATION_ITEM()
RATIONAL_B_SPLINE_SURFACE(((1.,0.333333333333333,0.333333333333333,1.,0.333333333333333,
0.333333333333333,1.),(0.888088837767832,0.296029612589277,0.296029612589277,
0.888088837767832,0.296029612589277,0.296029612589277,0.888088837767832),
(0.888088837767832,0.296029612589277,0.296029612589277,0.888088837767832,
0.296029612589277,0.296029612589277,0.888088837767832),(1.,0.333333333333333,
0.333333333333333,1.,0.333333333333333,0.333333333333333,1.)))
REPRESENTATION_ITEM('')
SURFACE()
);
#113=(
BOUNDED_SURFACE()
B_SPLINE_SURFACE(3,3,((#250,#251,#252,#253,#254,#255,#256),(#257,#258,#259,
#260,#261,#262,#263),(#264,#265,#266,#267,#268,#269,#270),(#271,#272,#273,
#274,#275,#276,#277)),.UNSPECIFIED.,.F.,.T.,.F.)
B_SPLINE_SURFACE_WITH_KNOTS((4,4),(1,3,3,3,1),(0.,1.),(-0.5,0.,0.5,1.,1.5),
.UNSPECIFIED.)
GEOMETRIC_REPRESENTATION_ITEM()
RATIONAL_B_SPLINE_SURFACE(((1.,0.333333333333333,0.333333333333333,1.,0.333333333333333,
0.333333333333333,1.),(0.884799650531222,0.294933216843741,0.294933216843741,
0.884799650531222,0.294933216843741,0.294933216843741,0.884799650531222),
(0.884799650531222,0.294933216843741,0.294933216843741,0.884799650531222,
0.294933216843741,0.294933216843741,0.884799650531222),(1.,0.333333333333333,
0.333333333333333,1.,0.333333333333333,0.333333333333333,1.)))
REPRESENTATION_ITEM('')
SURFACE()
);
#114=FACE_BOUND('',#125,.T.);
#115=FACE_BOUND('',#126,.T.);
#116=FACE_BOUND('',#127,.T.);
#117=FACE_BOUND('',#128,.T.);
#118=FACE_BOUND('',#130,.T.);
#119=FACE_BOUND('',#131,.T.);
#120=FACE_BOUND('',#132,.T.);
#121=FACE_BOUND('',#133,.T.);
#122=FACE_BOUND('',#134,.T.);
#123=FACE_BOUND('',#135,.T.);
#124=FACE_BOUND('',#137,.T.);
#125=EDGE_LOOP('',(#139));
#126=EDGE_LOOP('',(#140));
#127=EDGE_LOOP('',(#141));
#128=EDGE_LOOP('',(#142));
#129=EDGE_LOOP('',(#143));
#130=EDGE_LOOP('',(#144));
#131=EDGE_LOOP('',(#145));
#132=EDGE_LOOP('',(#146));
#133=EDGE_LOOP('',(#147));
#134=EDGE_LOOP('',(#148));
#135=EDGE_LOOP('',(#149));
#136=EDGE_LOOP('',(#150));
#137=EDGE_LOOP('',(#151));
#138=EDGE_LOOP('',(#152));
#139=ORIENTED_EDGE('',*,*,#160,.T.);
#140=ORIENTED_EDGE('',*,*,#161,.F.);
#141=ORIENTED_EDGE('',*,*,#162,.T.);
#142=ORIENTED_EDGE('',*,*,#163,.T.);
#143=ORIENTED_EDGE('',*,*,#164,.F.);
#144=ORIENTED_EDGE('',*,*,#165,.F.);
#145=ORIENTED_EDGE('',*,*,#164,.T.);
#146=ORIENTED_EDGE('',*,*,#160,.F.);
#147=ORIENTED_EDGE('',*,*,#166,.T.);
#148=ORIENTED_EDGE('',*,*,#165,.T.);
#149=ORIENTED_EDGE('',*,*,#166,.F.);
#150=ORIENTED_EDGE('',*,*,#162,.F.);
#151=ORIENTED_EDGE('',*,*,#163,.F.);
#152=ORIENTED_EDGE('',*,*,#161,.T.);
#153=VERTEX_POINT('',#215);
#154=VERTEX_POINT('',#217);
#155=VERTEX_POINT('',#247);
#156=VERTEX_POINT('',#249);
#157=VERTEX_POINT('',#279);
#158=VERTEX_POINT('',#281);
#159=VERTEX_POINT('',#285);
#160=EDGE_CURVE('',#153,#153,#167,.T.);
#161=EDGE_CURVE('',#154,#154,#168,.T.);
#162=EDGE_CURVE('',#155,#155,#169,.T.);
#163=EDGE_CURVE('',#156,#156,#170,.T.);
#164=EDGE_CURVE('',#157,#157,#171,.T.);
#165=EDGE_CURVE('',#158,#158,#172,.T.);
#166=EDGE_CURVE('',#159,#159,#173,.T.);
#167=CIRCLE('',#175,38.5);
#168=CIRCLE('',#176,188.377036066316);
#169=CIRCLE('',#177,30.7151316290075);
#170=CIRCLE('',#178,176.031103101383);
#171=CIRCLE('',#179,38.5);
#172=CIRCLE('',#180,23.);
#173=CIRCLE('',#183,23.);
#174=AXIS2_PLACEMENT_3D('',#213,#187,#188);
#175=AXIS2_PLACEMENT_3D('',#214,#189,#190);
#176=AXIS2_PLACEMENT_3D('',#216,#191,#192);
#177=AXIS2_PLACEMENT_3D('',#246,#193,#194);
#178=AXIS2_PLACEMENT_3D('',#248,#195,#196);
#179=AXIS2_PLACEMENT_3D('',#278,#197,#198);
#180=AXIS2_PLACEMENT_3D('',#280,#199,#200);
#181=AXIS2_PLACEMENT_3D('',#282,#201,#202);
#182=AXIS2_PLACEMENT_3D('',#283,#203,#204);
#183=AXIS2_PLACEMENT_3D('',#284,#205,#206);
#184=AXIS2_PLACEMENT_3D('',#286,#207,#208);
#185=AXIS2_PLACEMENT_3D('',#287,#209,#210);
#186=AXIS2_PLACEMENT_3D('',#288,#211,#212);
#187=DIRECTION('',(0.,0.,1.));
#188=DIRECTION('',(1.,0.,0.));
#189=DIRECTION('',(-5.46571335200077E-016,0.,1.));
#190=DIRECTION('',(1.,0.,7.20924041964387E-016));
#191=DIRECTION('',(0.,0.,1.));
#192=DIRECTION('',(1.,0.,0.));
#193=DIRECTION('',(0.,0.,-1.));
#194=DIRECTION('',(1.,0.,0.));
#195=DIRECTION('',(0.,0.,1.));
#196=DIRECTION('',(1.,0.,0.));
#197=DIRECTION('',(0.,0.,1.));
#198=DIRECTION('',(1.,0.,0.));
#199=DIRECTION('',(0.,0.,-1.));
#200=DIRECTION('',(1.,0.,0.));
#201=DIRECTION('',(0.,0.,1.));
#202=DIRECTION('',(1.,0.,0.));
#203=DIRECTION('',(0.,0.,1.));
#204=DIRECTION('',(1.,0.,0.));
#205=DIRECTION('',(0.,0.,1.));
#206=DIRECTION('',(1.,0.,0.));
#207=DIRECTION('',(0.,0.,1.));
#208=DIRECTION('',(1.,0.,0.));
#209=DIRECTION('',(0.,0.,1.));
#210=DIRECTION('',(1.,0.,3.98818864180098E-017));
#211=DIRECTION('',(0.,0.,1.));
#212=DIRECTION('',(1.,0.,0.));
#213=CARTESIAN_POINT('',(0.,0.,0.));
#214=CARTESIAN_POINT('',(-99.9999999999999,85.,-140.642063004823));
#215=CARTESIAN_POINT('',(-61.4999999999999,85.,-140.642063004823));
#216=CARTESIAN_POINT('',(-100.,85.,0.));
#217=CARTESIAN_POINT('',(88.3770360663164,85.,0.));
#218=CARTESIAN_POINT('',(88.3770360663164,85.,2.22044604925031E-013));
#219=CARTESIAN_POINT('',(88.3770360663164,461.754072132633,2.22044604925031E-013));
#220=CARTESIAN_POINT('',(-288.377036066316,461.754072132633,1.44135932549318E-014));
#221=CARTESIAN_POINT('',(-288.377036066316,85.,1.44135932549318E-014));
#222=CARTESIAN_POINT('',(-288.377036066316,-291.754072132633,1.44135932549318E-014));
#223=CARTESIAN_POINT('',(88.3770360663164,-291.754072132633,2.18628534080031E-013));
#224=CARTESIAN_POINT('',(88.3770360663164,85.,2.22044604925031E-013));
#225=CARTESIAN_POINT('',(70.8408808947268,85.,-75.124280542288));
#226=CARTESIAN_POINT('',(70.8408808947268,426.681761789454,-75.124280542288));
#227=CARTESIAN_POINT('',(-270.840880894727,426.681761789454,-75.1242805422882));
#228=CARTESIAN_POINT('',(-270.840880894727,85.,-75.1242805422882));
#229=CARTESIAN_POINT('',(-270.840880894727,-256.681761789453,-75.1242805422882));
#230=CARTESIAN_POINT('',(70.8408808947267,-256.681761789453,-75.124280542288));
#231=CARTESIAN_POINT('',(70.8408808947268,85.,-75.124280542288));
#232=CARTESIAN_POINT('',(14.5863600658478,85.,-127.912566662522));
#233=CARTESIAN_POINT('',(14.5863600658478,314.172720131695,-127.912566662522));
#234=CARTESIAN_POINT('',(-214.586360065848,314.172720131695,-127.912566662522));
#235=CARTESIAN_POINT('',(-214.586360065848,85.,-127.912566662522));
#236=CARTESIAN_POINT('',(-214.586360065848,-144.172720131695,-127.912566662522));
#237=CARTESIAN_POINT('',(14.5863600658478,-144.172720131695,-127.912566662522));
#238=CARTESIAN_POINT('',(14.5863600658478,85.,-127.912566662522));
#239=CARTESIAN_POINT('',(-61.4999999999999,85.,-140.642063004823));
#240=CARTESIAN_POINT('',(-61.4999999999999,162.,-140.642063004823));
#241=CARTESIAN_POINT('',(-138.5,162.,-140.642063004823));
#242=CARTESIAN_POINT('',(-138.5,85.,-140.642063004823));
#243=CARTESIAN_POINT('',(-138.5,8.00000000000008,-140.642063004823));
#244=CARTESIAN_POINT('',(-61.4999999999999,8.00000000000002,-140.642063004823));
#245=CARTESIAN_POINT('',(-61.4999999999999,85.,-140.642063004823));
#246=CARTESIAN_POINT('',(-100.,85.,-129.676933406852));
#247=CARTESIAN_POINT('',(-69.2848683709925,85.,-129.676933406852));
#248=CARTESIAN_POINT('',(-100.,85.,0.));
#249=CARTESIAN_POINT('',(76.031103101383,85.,0.));
#250=CARTESIAN_POINT('',(-69.2848683709923,85.,-129.676933406852));
#251=CARTESIAN_POINT('',(-69.2848683709923,146.430263258015,-129.676933406852));
#252=CARTESIAN_POINT('',(-130.715131629008,146.430263258015,-129.676933406852));
#253=CARTESIAN_POINT('',(-130.715131629008,85.,-129.676933406852));
#254=CARTESIAN_POINT('',(-130.715131629008,23.5697367419848,-129.676933406852));
#255=CARTESIAN_POINT('',(-69.2848683709923,23.5697367419848,-129.676933406852));
#256=CARTESIAN_POINT('',(-69.2848683709923,85.,-129.676933406852));
#257=CARTESIAN_POINT('',(3.45169251917629,85.,-120.027129544921));
#258=CARTESIAN_POINT('',(3.45169251917629,291.903385038353,-120.027129544921));
#259=CARTESIAN_POINT('',(-203.451692519176,291.903385038352,-120.027129544922));
#260=CARTESIAN_POINT('',(-203.451692519176,85.,-120.027129544922));
#261=CARTESIAN_POINT('',(-203.451692519176,-121.903385038352,-120.027129544922));
#262=CARTESIAN_POINT('',(3.45169251917629,-121.903385038352,-120.027129544921));
#263=CARTESIAN_POINT('',(3.45169251917629,85.,-120.027129544921));
#264=CARTESIAN_POINT('',(58.1970319057555,85.,-71.1735337698796));
#265=CARTESIAN_POINT('',(58.1970319057555,401.394063811511,-71.1735337698796));
#266=CARTESIAN_POINT('',(-258.197031905755,401.394063811511,-71.1735337698798));
#267=CARTESIAN_POINT('',(-258.197031905755,85.,-71.1735337698798));
#268=CARTESIAN_POINT('',(-258.197031905755,-231.394063811511,-71.1735337698798));
#269=CARTESIAN_POINT('',(58.1970319057555,-231.394063811511,-71.1735337698796));
#270=CARTESIAN_POINT('',(58.1970319057555,85.,-71.1735337698796));
#271=CARTESIAN_POINT('',(76.0311031013831,85.,2.15105711021124E-013));
#272=CARTESIAN_POINT('',(76.0311031013831,437.062206202766,2.15105711021124E-013));
#273=CARTESIAN_POINT('',(-276.031103101383,437.062206202766,2.09705654808931E-014));
#274=CARTESIAN_POINT('',(-276.031103101383,85.,2.09705654808931E-014));
#275=CARTESIAN_POINT('',(-276.031103101383,-267.062206202766,2.09705654808931E-014));
#276=CARTESIAN_POINT('',(76.0311031013831,-267.062206202766,2.11689640176124E-013));
#277=CARTESIAN_POINT('',(76.0311031013831,85.,2.15105711021124E-013));
#278=CARTESIAN_POINT('',(-100.,84.9999999999992,-154.56));
#279=CARTESIAN_POINT('',(-61.5000000000001,84.9999999999992,-154.56));
#280=CARTESIAN_POINT('',(-100.,84.9999999999992,-154.56));
#281=CARTESIAN_POINT('',(-77.,84.9999999999992,-154.56));
#282=CARTESIAN_POINT('',(-100.,84.9999999999992,-154.56));
#283=CARTESIAN_POINT('',(-100.,84.9999999999992,-160.));
#284=CARTESIAN_POINT('',(-100.,84.9999999999992,-135.344932854246));
#285=CARTESIAN_POINT('',(-77.,84.9999999999992,-135.344932854246));
#286=CARTESIAN_POINT('',(-100.,84.9999999999992,-160.));
#287=CARTESIAN_POINT('',(-99.9999999999999,85.,-129.676933406852));
#288=CARTESIAN_POINT('',(0.,0.,0.));
#289=(
GEOMETRIC_REPRESENTATION_CONTEXT(3)
GLOBAL_UNCERTAINTY_ASSIGNED_CONTEXT((#290))
GLOBAL_UNIT_ASSIGNED_CONTEXT((#296,#292,#291))
REPRESENTATION_CONTEXT('721','TOP_LEVEL_ASSEMBLY_PART')
);
#290=UNCERTAINTY_MEASURE_WITH_UNIT(LENGTH_MEASURE(0.0254),#296,
'DISTANCE_ACCURACY_VALUE','Maximum Tolerance applied to model');
#291=(
NAMED_UNIT(*)
SI_UNIT($,.STERADIAN.)
SOLID_ANGLE_UNIT()
);
#292=(
CONVERSION_BASED_UNIT('DEGREE',#294)
NAMED_UNIT(#293)
PLANE_ANGLE_UNIT()
);
#293=DIMENSIONAL_EXPONENTS(0.,0.,0.,0.,0.,0.,0.);
#294=PLANE_ANGLE_MEASURE_WITH_UNIT(PLANE_ANGLE_MEASURE(0.0174532925),#295);
#295=(
NAMED_UNIT(*)
PLANE_ANGLE_UNIT()
SI_UNIT($,.RADIAN.)
);
#296=(
LENGTH_UNIT()
NAMED_UNIT(*)
SI_UNIT(.MILLI.,.METRE.)
);
ENDSEC;
END-ISO-10303-21;
