ISO-10303-21;
HEADER;
/* Generated by software containing ST-Developer
 * from STEP Tools, Inc. (www.steptools.com) 
 */

FILE_DESCRIPTION(
/* description */ (''),
/* implementation_level */ '2;1');

FILE_NAME(
/* name */ '722',
/* time_stamp */ '2018-11-04T13:35:11+08:00',
/* author */ (''),
/* organization */ (''),
/* preprocessor_version */ 'ST-DEVELOPER v9',
/* originating_system */ 'UGS - NX 4.0',
/* authorisation */ '');

FILE_SCHEMA (('CONFIG_CONTROL_DESIGN'));
ENDSEC;

DATA;
#10=SHAPE_REPRESENTATION_RELATIONSHIP('None',
'relationship between Admi0F23gfo5-None and Admi0F23gfo5-None',#94,#11);
#11=ADVANCED_BREP_SHAPE_REPRESENTATION('Admi0F23gfo5-None',(#95),#394);
#12=CC_DESIGN_APPROVAL(#24,(#82));
#13=CC_DESIGN_APPROVAL(#25,(#84));
#14=CC_DESIGN_APPROVAL(#26,(#31));
#15=APPROVAL_PERSON_ORGANIZATION(#69,#24,#18);
#16=APPROVAL_PERSON_ORGANIZATION(#70,#25,#19);
#17=APPROVAL_PERSON_ORGANIZATION(#71,#26,#20);
#18=APPROVAL_ROLE('approver');
#19=APPROVAL_ROLE('approver');
#20=APPROVAL_ROLE('approver');
#21=APPROVAL_DATE_TIME(#39,#24);
#22=APPROVAL_DATE_TIME(#40,#25);
#23=APPROVAL_DATE_TIME(#41,#26);
#24=APPROVAL(#27,' ');
#25=APPROVAL(#28,' ');
#26=APPROVAL(#29,' ');
#27=APPROVAL_STATUS('not_yet_approved');
#28=APPROVAL_STATUS('not_yet_approved');
#29=APPROVAL_STATUS('not_yet_approved');
#30=CC_DESIGN_SECURITY_CLASSIFICATION(#31,(#84));
#31=SECURITY_CLASSIFICATION(' ',' ',#32);
#32=SECURITY_CLASSIFICATION_LEVEL('confidential');
#33=CC_DESIGN_DATE_AND_TIME_ASSIGNMENT(#37,#35,(#82));
#34=CC_DESIGN_DATE_AND_TIME_ASSIGNMENT(#38,#36,(#31));
#35=DATE_TIME_ROLE('creation_date');
#36=DATE_TIME_ROLE('classification_date');
#37=DATE_AND_TIME(#52,#42);
#38=DATE_AND_TIME(#53,#43);
#39=DATE_AND_TIME(#54,#44);
#40=DATE_AND_TIME(#55,#45);
#41=DATE_AND_TIME(#56,#46);
#42=LOCAL_TIME(0,0,0.,#47);
#43=LOCAL_TIME(0,0,0.,#48);
#44=LOCAL_TIME(0,0,0.,#49);
#45=LOCAL_TIME(0,0,0.,#50);
#46=LOCAL_TIME(0,0,0.,#51);
#47=COORDINATED_UNIVERSAL_TIME_OFFSET(0,0,.BEHIND.);
#48=COORDINATED_UNIVERSAL_TIME_OFFSET(0,0,.BEHIND.);
#49=COORDINATED_UNIVERSAL_TIME_OFFSET(0,0,.BEHIND.);
#50=COORDINATED_UNIVERSAL_TIME_OFFSET(0,0,.BEHIND.);
#51=COORDINATED_UNIVERSAL_TIME_OFFSET(0,0,.BEHIND.);
#52=CALENDAR_DATE(0,1,1);
#53=CALENDAR_DATE(0,1,1);
#54=CALENDAR_DATE(0,1,1);
#55=CALENDAR_DATE(0,1,1);
#56=CALENDAR_DATE(0,1,1);
#57=CC_DESIGN_PERSON_AND_ORGANIZATION_ASSIGNMENT(#65,#61,(#82,#84));
#58=CC_DESIGN_PERSON_AND_ORGANIZATION_ASSIGNMENT(#66,#62,(#86));
#59=CC_DESIGN_PERSON_AND_ORGANIZATION_ASSIGNMENT(#67,#63,(#84));
#60=CC_DESIGN_PERSON_AND_ORGANIZATION_ASSIGNMENT(#68,#64,(#31));
#61=PERSON_AND_ORGANIZATION_ROLE('creator');
#62=PERSON_AND_ORGANIZATION_ROLE('design_owner');
#63=PERSON_AND_ORGANIZATION_ROLE('design_supplier');
#64=PERSON_AND_ORGANIZATION_ROLE('classification_officer');
#65=PERSON_AND_ORGANIZATION(#79,#72);
#66=PERSON_AND_ORGANIZATION(#79,#73);
#67=PERSON_AND_ORGANIZATION(#79,#74);
#68=PERSON_AND_ORGANIZATION(#79,#75);
#69=PERSON_AND_ORGANIZATION(#79,#76);
#70=PERSON_AND_ORGANIZATION(#79,#77);
#71=PERSON_AND_ORGANIZATION(#79,#78);
#72=ORGANIZATION(' ',' ',' ');
#73=ORGANIZATION(' ',' ',' ');
#74=ORGANIZATION(' ',' ',' ');
#75=ORGANIZATION(' ',' ',' ');
#76=ORGANIZATION(' ',' ',' ');
#77=ORGANIZATION(' ',' ',' ');
#78=ORGANIZATION(' ',' ',' ');
#79=PERSON(' ',' ',' ',(' '),$,$);
#80=SHAPE_DEFINITION_REPRESENTATION(#81,#94);
#81=PRODUCT_DEFINITION_SHAPE('','',#82);
#82=PRODUCT_DEFINITION(' ','',#84,#83);
#83=DESIGN_CONTEXT('',#93,'design');
#84=PRODUCT_DEFINITION_FORMATION_WITH_SPECIFIED_SOURCE(' ',' ',#86,.NOT_KNOWN.);
#85=PRODUCT_RELATED_PRODUCT_CATEGORY('detail','',(#86));
#86=PRODUCT('Admi0F23gfo5','Admi0F23gfo5',' ',(#91));
#87=PRODUCT_CATEGORY_RELATIONSHIP(' ',' ',#89,#90);
#88=PRODUCT_CATEGORY_RELATIONSHIP('','',#90,#85);
#89=PRODUCT_CATEGORY('part',' ');
#90=PRODUCT_CATEGORY(' ','');
#91=MECHANICAL_CONTEXT(' ',#93,'mechanical');
#92=APPLICATION_PROTOCOL_DEFINITION('international standard',
'config_control_design',1994,#93);
#93=APPLICATION_CONTEXT(
'configuration controlled 3D designs of mechanical parts and assemblies
');
#94=SHAPE_REPRESENTATION('Admi0F23gfo5-None',(#176),#394);
#95=MANIFOLD_SOLID_BREP('',#96);
#96=CLOSED_SHELL('',(#107,#108,#109,#110,#111,#112,#113));
#97=CONICAL_SURFACE('',#188,32.7257083746885,58.8058709010014);
#98=CYLINDRICAL_SURFACE('',#184,23.);
#99=CYLINDRICAL_SURFACE('',#186,38.5000000000005);
#100=PLANE('',#181);
#101=PLANE('',#187);
#102=(
BOUNDED_SURFACE()
B_SPLINE_SURFACE(3,3,((#243,#244,#245,#246,#247,#248,#249),(#250,#251,#252,
#253,#254,#255,#256),(#257,#258,#259,#260,#261,#262,#263),(#264,#265,#266,
#267,#268,#269,#270),(#271,#272,#273,#274,#275,#276,#277),(#278,#279,#280,
#281,#282,#283,#284),(#285,#286,#287,#288,#289,#290,#291),(#292,#293,#294,
#295,#296,#297,#298),(#299,#300,#301,#302,#303,#304,#305),(#306,#307,#308,
#309,#310,#311,#312),(#313,#314,#315,#316,#317,#318,#319),(#320,#321,#322,
#323,#324,#325,#326),(#327,#328,#329,#330,#331,#332,#333),(#334,#335,#336,
#337,#338,#339,#340),(#341,#342,#343,#344,#345,#346,#347),(#348,#349,#350,
#351,#352,#353,#354),(#355,#356,#357,#358,#359,#360,#361),(#362,#363,#364,
#365,#366,#367,#368),(#369,#370,#371,#372,#373,#374,#375),(#376,#377,#378,
#379,#380,#381,#382)),.UNSPECIFIED.,.F.,.T.,.F.)
B_SPLINE_SURFACE_WITH_KNOTS((4,2,2,2,2,2,2,2,2,4),(1,3,3,3,1),(0.,0.125,
0.25,0.375,0.5,0.5625,0.625,0.75,0.875,1.),(-0.5,0.,0.5,1.,1.5),.UNSPECIFIED.)
GEOMETRIC_REPRESENTATION_ITEM()
RATIONAL_B_SPLINE_SURFACE(((1.,0.333333333333333,0.333333333333333,1.,0.333333333333333,
0.333333333333333,1.),(1.,0.333333333333333,0.333333333333333,1.,0.333333333333333,
0.333333333333333,1.),(1.,0.333333333333333,0.333333333333333,1.,0.333333333333333,
0.333333333333333,1.),(1.,0.333333333333333,0.333333333333333,1.,0.333333333333333,
0.333333333333333,1.),(1.,0.333333333333333,0.333333333333333,1.,0.333333333333333,
0.333333333333333,1.),(1.,0.333333333333333,0.333333333333333,1.,0.333333333333333,
0.333333333333333,1.),(1.,0.333333333333333,0.333333333333333,1.,0.333333333333333,
0.333333333333333,1.),(1.,0.333333333333333,0.333333333333333,1.,0.333333333333333,
0.333333333333333,1.),(1.,0.333333333333333,0.333333333333333,1.,0.333333333333333,
0.333333333333333,1.),(1.,0.333333333333333,0.333333333333333,1.,0.333333333333333,
0.333333333333333,1.),(1.,0.333333333333333,0.333333333333333,1.,0.333333333333333,
0.333333333333333,1.),(1.,0.333333333333333,0.333333333333333,1.,0.333333333333333,
0.333333333333333,1.),(1.,0.333333333333333,0.333333333333333,1.,0.333333333333333,
0.333333333333333,1.),(1.,0.333333333333333,0.333333333333333,1.,0.333333333333333,
0.333333333333333,1.),(1.,0.333333333333333,0.333333333333333,1.,0.333333333333333,
0.333333333333333,1.),(1.,0.333333333333333,0.333333333333333,1.,0.333333333333333,
0.333333333333333,1.),(1.,0.333333333333333,0.333333333333333,1.,0.333333333333333,
0.333333333333333,1.),(1.,0.333333333333333,0.333333333333333,1.,0.333333333333333,
0.333333333333333,1.),(1.,0.333333333333333,0.333333333333333,1.,0.333333333333333,
0.333333333333333,1.),(1.,0.333333333333333,0.333333333333333,1.,0.333333333333333,
0.333333333333333,1.)))
REPRESENTATION_ITEM('')
SURFACE()
);
#103=FACE_OUTER_BOUND('',#130,.T.);
#104=FACE_OUTER_BOUND('',#132,.T.);
#105=FACE_OUTER_BOUND('',#137,.T.);
#106=FACE_OUTER_BOUND('',#140,.T.);
#107=ADVANCED_FACE('',(#117,#118),#114,.T.);
#108=ADVANCED_FACE('',(#119,#103),#102,.T.);
#109=ADVANCED_FACE('',(#120,#104),#100,.T.);
#110=ADVANCED_FACE('',(#121,#122),#98,.F.);
#111=ADVANCED_FACE('',(#123,#124),#99,.T.);
#112=ADVANCED_FACE('',(#105,#125),#101,.T.);
#113=ADVANCED_FACE('',(#126,#106),#97,.F.);
#114=SURFACE_OF_REVOLUTION('',#116,#115);
#115=AXIS1_PLACEMENT('',#238,#195);
#116=B_SPLINE_CURVE_WITH_KNOTS('',3,(#221,#222,#223,#224,#225,#226,#227,
#228,#229,#230,#231,#232,#233,#234,#235,#236,#237),.UNSPECIFIED.,.F.,.F.,
(4,1,1,1,1,1,1,1,3,3,4),(0.,0.109043612850358,0.218087225700715,0.327130838551073,
0.436174451401431,0.545218064251789,0.654261677102146,0.763305289952504,
0.872348902802862,0.974469780560572,1.),.UNSPECIFIED.);
#117=FACE_BOUND('',#127,.T.);
#118=FACE_BOUND('',#128,.T.);
#119=FACE_BOUND('',#129,.T.);
#120=FACE_BOUND('',#131,.T.);
#121=FACE_BOUND('',#133,.T.);
#122=FACE_BOUND('',#134,.T.);
#123=FACE_BOUND('',#135,.T.);
#124=FACE_BOUND('',#136,.T.);
#125=FACE_BOUND('',#138,.T.);
#126=FACE_BOUND('',#139,.T.);
#127=EDGE_LOOP('',(#141));
#128=EDGE_LOOP('',(#142));
#129=EDGE_LOOP('',(#143));
#130=EDGE_LOOP('',(#144));
#131=EDGE_LOOP('',(#145));
#132=EDGE_LOOP('',(#146));
#133=EDGE_LOOP('',(#147));
#134=EDGE_LOOP('',(#148));
#135=EDGE_LOOP('',(#149));
#136=EDGE_LOOP('',(#150));
#137=EDGE_LOOP('',(#151));
#138=EDGE_LOOP('',(#152));
#139=EDGE_LOOP('',(#153));
#140=EDGE_LOOP('',(#154));
#141=ORIENTED_EDGE('',*,*,#162,.F.);
#142=ORIENTED_EDGE('',*,*,#163,.F.);
#143=ORIENTED_EDGE('',*,*,#164,.T.);
#144=ORIENTED_EDGE('',*,*,#165,.T.);
#145=ORIENTED_EDGE('',*,*,#165,.F.);
#146=ORIENTED_EDGE('',*,*,#162,.T.);
#147=ORIENTED_EDGE('',*,*,#166,.T.);
#148=ORIENTED_EDGE('',*,*,#167,.F.);
#149=ORIENTED_EDGE('',*,*,#168,.T.);
#150=ORIENTED_EDGE('',*,*,#163,.T.);
#151=ORIENTED_EDGE('',*,*,#168,.F.);
#152=ORIENTED_EDGE('',*,*,#167,.T.);
#153=ORIENTED_EDGE('',*,*,#166,.F.);
#154=ORIENTED_EDGE('',*,*,#164,.F.);
#155=VERTEX_POINT('',#218);
#156=VERTEX_POINT('',#220);
#157=VERTEX_POINT('',#240);
#158=VERTEX_POINT('',#242);
#159=VERTEX_POINT('',#385);
#160=VERTEX_POINT('',#387);
#161=VERTEX_POINT('',#390);
#162=EDGE_CURVE('',#155,#155,#169,.T.);
#163=EDGE_CURVE('',#156,#156,#170,.T.);
#164=EDGE_CURVE('',#157,#157,#171,.T.);
#165=EDGE_CURVE('',#158,#158,#172,.T.);
#166=EDGE_CURVE('',#159,#159,#173,.T.);
#167=EDGE_CURVE('',#160,#160,#174,.T.);
#168=EDGE_CURVE('',#161,#161,#175,.T.);
#169=CIRCLE('',#177,212.002643152829);
#170=CIRCLE('',#178,38.5000000000005);
#171=CIRCLE('',#179,32.7257083746885);
#172=CIRCLE('',#180,199.785021768556);
#173=CIRCLE('',#182,23.);
#174=CIRCLE('',#183,23.0000000000006);
#175=CIRCLE('',#185,38.5000000000005);
#176=AXIS2_PLACEMENT_3D('',#216,#189,#190);
#177=AXIS2_PLACEMENT_3D('',#217,#191,#192);
#178=AXIS2_PLACEMENT_3D('',#219,#193,#194);
#179=AXIS2_PLACEMENT_3D('',#239,#196,#197);
#180=AXIS2_PLACEMENT_3D('',#241,#198,#199);
#181=AXIS2_PLACEMENT_3D('',#383,#200,#201);
#182=AXIS2_PLACEMENT_3D('',#384,#202,#203);
#183=AXIS2_PLACEMENT_3D('',#386,#204,#205);
#184=AXIS2_PLACEMENT_3D('',#388,#206,#207);
#185=AXIS2_PLACEMENT_3D('',#389,#208,#209);
#186=AXIS2_PLACEMENT_3D('',#391,#210,#211);
#187=AXIS2_PLACEMENT_3D('',#392,#212,#213);
#188=AXIS2_PLACEMENT_3D('',#393,#214,#215);
#189=DIRECTION('',(0.,0.,1.));
#190=DIRECTION('',(1.,0.,0.));
#191=DIRECTION('',(0.,-3.65421978390909E-015,1.));
#192=DIRECTION('',(0.,-1.,-3.66578503777131E-015));
#193=DIRECTION('',(0.,3.65421978390909E-015,-1.));
#194=DIRECTION('',(0.,-1.,-3.64967796244466E-015));
#195=DIRECTION('',(0.,-3.65421978390909E-015,1.));
#196=DIRECTION('',(0.,3.65421978390909E-015,-1.));
#197=DIRECTION('',(0.,-1.,-3.6045421848732E-015));
#198=DIRECTION('',(0.,-3.65421978390909E-015,1.));
#199=DIRECTION('',(0.,-1.,-3.61210745239127E-015));
#200=DIRECTION('',(0.,0.,1.));
#201=DIRECTION('',(1.,0.,0.));
#202=DIRECTION('',(0.,-3.65424272500437E-015,1.));
#203=DIRECTION('',(0.,-1.,-3.62029247160377E-015));
#204=DIRECTION('',(0.,-3.57173225916157E-015,1.));
#205=DIRECTION('',(0.,-1.,-3.57315324671301E-015));
#206=DIRECTION('',(0.,0.,-1.));
#207=DIRECTION('',(-1.,0.,0.));
#208=DIRECTION('',(0.,-3.62029247160368E-015,1.));
#209=DIRECTION('',(0.,1.,3.62151686705543E-015));
#210=DIRECTION('',(0.,3.62029247160368E-015,-1.));
#211=DIRECTION('',(0.,1.,3.60462020982189E-015));
#212=DIRECTION('',(0.,3.57173225916157E-015,-1.));
#213=DIRECTION('',(0.,1.,3.571687216819E-015));
#214=DIRECTION('',(0.,-3.65424272500437E-015,1.));
#215=DIRECTION('',(0.,-1.,-3.65832905853076E-015));
#216=CARTESIAN_POINT('',(0.,0.,0.));
#217=CARTESIAN_POINT('',(-0.411902844609171,0.00197823449542511,162.245346241892));
#218=CARTESIAN_POINT('',(-0.411902844609171,-212.000664918333,162.245346241891));
#219=CARTESIAN_POINT('',(-0.411902844609171,0.00197823449597013,13.0979976976487));
#220=CARTESIAN_POINT('',(-0.411902844609171,-38.4980217655046,13.0979976976485));
#221=CARTESIAN_POINT('',(-0.411902844609171,-0.0314101415062514,10.2453926912998));
#222=CARTESIAN_POINT('',(-0.411902844609171,-12.1628528245649,10.2791469194344));
#223=CARTESIAN_POINT('',(-0.411902844609171,-35.775996114689,11.9142691520429));
#224=CARTESIAN_POINT('',(-0.411902844609171,-69.5019749700307,18.9004295985666));
#225=CARTESIAN_POINT('',(-0.411902844609171,-101.673907910938,30.1997531187696));
#226=CARTESIAN_POINT('',(-0.411902844609171,-132.975854799171,45.6708964028709));
#227=CARTESIAN_POINT('',(-0.411902844609171,-161.891589968005,66.895009463833));
#228=CARTESIAN_POINT('',(-0.411902844609171,-185.364324536612,94.3878306364946));
#229=CARTESIAN_POINT('',(-0.411902844609171,-202.429642691245,125.451135818279));
#230=CARTESIAN_POINT('',(-0.411902844609171,-209.351328040211,148.008151361386));
#231=CARTESIAN_POINT('',(-0.411902844609171,-212.000664918333,162.245346241891));
#232=CARTESIAN_POINT('',(-0.411902844609171,-214.481806182801,175.578679575224));
#233=CARTESIAN_POINT('',(-0.411902844609171,-216.962947447269,188.912012908558));
#234=CARTESIAN_POINT('',(-0.411902844609171,-219.444088711737,202.245346241891));
#235=CARTESIAN_POINT('',(-0.411902844609171,-220.064374027854,205.578679575224));
#236=CARTESIAN_POINT('',(-0.411902844609171,-220.684659343971,208.912012908558));
#237=CARTESIAN_POINT('',(-0.411902844609171,-221.304944660088,212.245346241891));
#238=CARTESIAN_POINT('',(-0.411902844609171,0.00197823449542511,162.245346241891));
#239=CARTESIAN_POINT('',(-0.411902844609171,0.00197823449592881,24.4057633251854));
#240=CARTESIAN_POINT('',(-0.411902844609171,-32.7237301401925,24.4057633251853));
#241=CARTESIAN_POINT('',(-0.411902844609171,0.00197823449542511,162.24534624189));
#242=CARTESIAN_POINT('',(-0.411902844609171,-199.78304353406,162.24534624189));
#243=CARTESIAN_POINT('',(-0.411902844609171,-32.7237301401925,24.4057633251853));
#244=CARTESIAN_POINT('',(65.0395139047678,-32.7237301401925,24.4057633251853));
#245=CARTESIAN_POINT('',(65.0395139047678,32.7276866091844,24.4057633251856));
#246=CARTESIAN_POINT('',(-0.411902844609171,32.7276866091844,24.4057633251856));
#247=CARTESIAN_POINT('',(-65.8633195939861,32.7276866091844,24.4057633251856));
#248=CARTESIAN_POINT('',(-65.8633195939861,-32.7237301401925,24.4057633251853));
#249=CARTESIAN_POINT('',(-0.411902844609171,-32.7237301401925,24.4057633251853));
#250=CARTESIAN_POINT('',(-0.411902844609171,-42.3278727319143,25.6708245080105));
#251=CARTESIAN_POINT('',(84.2477990882114,-42.3278727319143,25.6708245080105));
#252=CARTESIAN_POINT('',(84.2477990882114,42.3318292009062,25.6708245080108));
#253=CARTESIAN_POINT('',(-0.411902844609171,42.3318292009062,25.6708245080108));
#254=CARTESIAN_POINT('',(-85.0716047774297,42.3318292009062,25.6708245080108));
#255=CARTESIAN_POINT('',(-85.0716047774297,-42.3278727319143,25.6708245080105));
#256=CARTESIAN_POINT('',(-0.411902844609171,-42.3278727319143,25.6708245080105));
#257=CARTESIAN_POINT('',(-0.411902844609171,-51.7174111698716,27.4836965125292));
#258=CARTESIAN_POINT('',(103.026875964126,-51.7174111698716,27.4836965125292));
#259=CARTESIAN_POINT('',(103.026875964126,51.7213676388634,27.4836965125296));
#260=CARTESIAN_POINT('',(-0.411902844609171,51.7213676388634,27.4836965125296));
#261=CARTESIAN_POINT('',(-103.850681653344,51.7213676388634,27.4836965125296));
#262=CARTESIAN_POINT('',(-103.850681653344,-51.7174111698716,27.4836965125292));
#263=CARTESIAN_POINT('',(-0.411902844609171,-51.7174111698716,27.4836965125292));
#264=CARTESIAN_POINT('',(-0.411902844609171,-70.1212251809582,32.1617932615301));
#265=CARTESIAN_POINT('',(139.834503986299,-70.1212251809582,32.1617932615301));
#266=CARTESIAN_POINT('',(139.834503986299,70.12518164995,32.1617932615306));
#267=CARTESIAN_POINT('',(-0.411902844609171,70.12518164995,32.1617932615306));
#268=CARTESIAN_POINT('',(-140.658309675517,70.12518164995,32.1617932615306));
#269=CARTESIAN_POINT('',(-140.658309675517,-70.1212251809582,32.1617932615301));
#270=CARTESIAN_POINT('',(-0.411902844609171,-70.1212251809582,32.1617932615301));
#271=CARTESIAN_POINT('',(-0.411902844609171,-79.1283994726983,35.0257084661478));
#272=CARTESIAN_POINT('',(157.848852569779,-79.1283994726983,35.0257084661478));
#273=CARTESIAN_POINT('',(157.848852569779,79.1323559416901,35.0257084661483));
#274=CARTESIAN_POINT('',(-0.411902844609171,79.1323559416901,35.0257084661483));
#275=CARTESIAN_POINT('',(-158.672658258998,79.1323559416901,35.0257084661483));
#276=CARTESIAN_POINT('',(-158.672658258998,-79.1283994726983,35.0257084661478));
#277=CARTESIAN_POINT('',(-0.411902844609171,-79.1283994726983,35.0257084661478));
#278=CARTESIAN_POINT('',(-0.411902844609171,-96.9294192980765,41.7920983824823));
#279=CARTESIAN_POINT('',(193.450892220536,-96.9294192980765,41.7920983824823));
#280=CARTESIAN_POINT('',(193.450892220536,96.9333757670682,41.792098382483));
#281=CARTESIAN_POINT('',(-0.411902844609171,96.9333757670682,41.792098382483));
#282=CARTESIAN_POINT('',(-194.274697909754,96.9333757670682,41.792098382483));
#283=CARTESIAN_POINT('',(-194.274697909754,-96.9294192980765,41.7920983824823));
#284=CARTESIAN_POINT('',(-0.411902844609171,-96.9294192980765,41.7920983824823));
#285=CARTESIAN_POINT('',(-0.411902844609171,-105.758924662334,45.672280837763));
#286=CARTESIAN_POINT('',(211.10990294905,-105.758924662334,45.672280837763));
#287=CARTESIAN_POINT('',(211.10990294905,105.762881131326,45.6722808377638));
#288=CARTESIAN_POINT('',(-0.411902844609171,105.762881131326,45.6722808377638));
#289=CARTESIAN_POINT('',(-211.933708638269,105.762881131326,45.6722808377638));
#290=CARTESIAN_POINT('',(-211.933708638269,-105.758924662334,45.672280837763));
#291=CARTESIAN_POINT('',(-0.411902844609171,-105.758924662334,45.672280837763));
#292=CARTESIAN_POINT('',(-0.411902844609171,-122.828696380277,54.5368970570531));
#293=CARTESIAN_POINT('',(245.249446384937,-122.828696380277,54.5368970570531));
#294=CARTESIAN_POINT('',(245.249446384937,122.832652849269,54.536897057054));
#295=CARTESIAN_POINT('',(-0.411902844609171,122.832652849269,54.536897057054));
#296=CARTESIAN_POINT('',(-246.073252074155,122.832652849269,54.536897057054));
#297=CARTESIAN_POINT('',(-246.073252074155,-122.828696380277,54.5368970570531));
#298=CARTESIAN_POINT('',(-0.411902844609171,-122.828696380277,54.5368970570531));
#299=CARTESIAN_POINT('',(-0.411902844609171,-131.108980380778,59.5634661762188));
#300=CARTESIAN_POINT('',(261.810014385938,-131.108980380778,59.5634661762188));
#301=CARTESIAN_POINT('',(261.810014385938,131.11293684977,59.5634661762198));
#302=CARTESIAN_POINT('',(-0.411902844609171,131.11293684977,59.5634661762198));
#303=CARTESIAN_POINT('',(-262.633820075157,131.11293684977,59.5634661762198));
#304=CARTESIAN_POINT('',(-262.633820075157,-131.108980380778,59.5634661762188));
#305=CARTESIAN_POINT('',(-0.411902844609171,-131.108980380778,59.5634661762188));
#306=CARTESIAN_POINT('',(-0.411902844609171,-142.793342790601,68.119246948417));
#307=CARTESIAN_POINT('',(285.178739205584,-142.793342790601,68.119246948417));
#308=CARTESIAN_POINT('',(285.178739205584,142.797299259593,68.119246948418));
#309=CARTESIAN_POINT('',(-0.411902844609171,142.797299259593,68.119246948418));
#310=CARTESIAN_POINT('',(-286.002544894803,142.797299259593,68.119246948418));
#311=CARTESIAN_POINT('',(-286.002544894803,-142.793342790601,68.119246948417));
#312=CARTESIAN_POINT('',(-0.411902844609171,-142.793342790601,68.119246948417));
#313=CARTESIAN_POINT('',(-0.411902844609171,-146.559456415936,71.1361798577346));
#314=CARTESIAN_POINT('',(292.710966456253,-146.559456415936,71.1361798577345));
#315=CARTESIAN_POINT('',(292.710966456253,146.563412884927,71.1361798577356));
#316=CARTESIAN_POINT('',(-0.411902844609171,146.563412884927,71.1361798577356));
#317=CARTESIAN_POINT('',(-293.534772145472,146.563412884927,71.1361798577356));
#318=CARTESIAN_POINT('',(-293.534772145472,-146.559456415936,71.1361798577345));
#319=CARTESIAN_POINT('',(-0.411902844609171,-146.559456415936,71.1361798577346));
#320=CARTESIAN_POINT('',(-0.411902844609171,-153.756117342519,77.5030677349327));
#321=CARTESIAN_POINT('',(307.10428830942,-153.756117342519,77.5030677349327));
#322=CARTESIAN_POINT('',(307.10428830942,153.76007381151,77.5030677349339));
#323=CARTESIAN_POINT('',(-0.411902844609171,153.76007381151,77.5030677349339));
#324=CARTESIAN_POINT('',(-307.928093998638,153.76007381151,77.5030677349339));
#325=CARTESIAN_POINT('',(-307.928093998638,-153.756117342519,77.5030677349327));
#326=CARTESIAN_POINT('',(-0.411902844609171,-153.756117342519,77.5030677349327));
#327=CARTESIAN_POINT('',(-0.411902844609171,-157.189769267276,80.863596916033));
#328=CARTESIAN_POINT('',(313.971592158935,-157.189769267276,80.863596916033));
#329=CARTESIAN_POINT('',(313.971592158935,157.193725736268,80.8635969160341));
#330=CARTESIAN_POINT('',(-0.411902844609171,157.193725736268,80.8635969160341));
#331=CARTESIAN_POINT('',(-314.795397848153,157.193725736268,80.8635969160341));
#332=CARTESIAN_POINT('',(-314.795397848153,-157.189769267276,80.863596916033));
#333=CARTESIAN_POINT('',(-0.411902844609171,-157.189769267276,80.863596916033));
#334=CARTESIAN_POINT('',(-0.411902844609171,-167.032814000062,91.4779472993782));
#335=CARTESIAN_POINT('',(333.657681624507,-167.032814000062,91.4779472993782));
#336=CARTESIAN_POINT('',(333.657681624507,167.036770469054,91.4779472993794));
#337=CARTESIAN_POINT('',(-0.411902844609171,167.036770469054,91.4779472993794));
#338=CARTESIAN_POINT('',(-334.481487313725,167.036770469054,91.4779472993794));
#339=CARTESIAN_POINT('',(-334.481487313725,-167.032814000062,91.4779472993782));
#340=CARTESIAN_POINT('',(-0.411902844609171,-167.032814000062,91.4779472993782));
#341=CARTESIAN_POINT('',(-0.411902844609171,-172.949389062145,99.2205705783425));
#342=CARTESIAN_POINT('',(345.490831748673,-172.949389062145,99.2205705783425));
#343=CARTESIAN_POINT('',(345.490831748673,172.953345531137,99.2205705783438));
#344=CARTESIAN_POINT('',(-0.411902844609171,172.953345531137,99.2205705783438));
#345=CARTESIAN_POINT('',(-346.314637437891,172.953345531137,99.2205705783438));
#346=CARTESIAN_POINT('',(-346.314637437891,-172.949389062145,99.2205705783425));
#347=CARTESIAN_POINT('',(-0.411902844609171,-172.949389062145,99.2205705783425));
#348=CARTESIAN_POINT('',(-0.411902844609171,-183.223201220954,115.446037817977));
#349=CARTESIAN_POINT('',(366.038456066291,-183.223201220954,115.446037817977));
#350=CARTESIAN_POINT('',(366.038456066291,183.227157689945,115.446037817979));
#351=CARTESIAN_POINT('',(-0.411902844609171,183.227157689945,115.446037817979));
#352=CARTESIAN_POINT('',(-366.862261755509,183.227157689945,115.446037817979));
#353=CARTESIAN_POINT('',(-366.862261755509,-183.223201220954,115.446037817977));
#354=CARTESIAN_POINT('',(-0.411902844609171,-183.223201220954,115.446037817977));
#355=CARTESIAN_POINT('',(-0.411902844609171,-187.601255159673,123.966953996545));
#356=CARTESIAN_POINT('',(374.794563943728,-187.601255159673,123.966953996545));
#357=CARTESIAN_POINT('',(374.794563943728,187.605211628664,123.966953996547));
#358=CARTESIAN_POINT('',(-0.411902844609171,187.605211628664,123.966953996547));
#359=CARTESIAN_POINT('',(-375.618369632946,187.605211628664,123.966953996547));
#360=CARTESIAN_POINT('',(-375.618369632946,-187.601255159673,123.966953996545));
#361=CARTESIAN_POINT('',(-0.411902844609171,-187.601255159673,123.966953996545));
#362=CARTESIAN_POINT('',(-0.411902844609171,-194.74542805686,141.602061839744));
#363=CARTESIAN_POINT('',(389.082909738102,-194.74542805686,141.602061839744));
#364=CARTESIAN_POINT('',(389.082909738102,194.749384525851,141.602061839745));
#365=CARTESIAN_POINT('',(-0.411902844609171,194.749384525851,141.602061839745));
#366=CARTESIAN_POINT('',(-389.90671542732,194.749384525851,141.602061839745));
#367=CARTESIAN_POINT('',(-389.90671542732,-194.74542805686,141.602061839744));
#368=CARTESIAN_POINT('',(-0.411902844609171,-194.74542805686,141.602061839744));
#369=CARTESIAN_POINT('',(-0.411902844609171,-197.521987757652,150.755500214421));
#370=CARTESIAN_POINT('',(394.636029139686,-197.521987757652,150.755500214421));
#371=CARTESIAN_POINT('',(394.636029139686,197.525944226643,150.755500214422));
#372=CARTESIAN_POINT('',(-0.411902844609171,197.525944226643,150.755500214422));
#373=CARTESIAN_POINT('',(-395.459834828904,197.525944226643,150.755500214422));
#374=CARTESIAN_POINT('',(-395.459834828904,-197.521987757652,150.755500214421));
#375=CARTESIAN_POINT('',(-0.411902844609171,-197.521987757652,150.755500214421));
#376=CARTESIAN_POINT('',(-0.411902844609171,-199.78304353406,162.24534624189));
#377=CARTESIAN_POINT('',(399.158140692502,-199.78304353406,162.24534624189));
#378=CARTESIAN_POINT('',(399.158140692502,199.787000003051,162.245346241891));
#379=CARTESIAN_POINT('',(-0.411902844609171,199.787000003051,162.245346241891));
#380=CARTESIAN_POINT('',(-399.981946381721,199.787000003051,162.245346241891));
#381=CARTESIAN_POINT('',(-399.981946381721,-199.78304353406,162.24534624189));
#382=CARTESIAN_POINT('',(-0.411902844609171,-199.78304353406,162.24534624189));
#383=CARTESIAN_POINT('',(105.605964371682,-0.00127545533325701,162.245346241891));
#384=CARTESIAN_POINT('',(-0.411902844609217,0.00197823449542511,18.5170269591666));
#385=CARTESIAN_POINT('',(-0.411902844609217,-22.9980217655046,18.5170269591665));
#386=CARTESIAN_POINT('',(-0.411902844609171,0.0019782344960208,-0.728606173452401));
#387=CARTESIAN_POINT('',(-0.411902844609171,-22.9980217655045,-0.728606173452484));
#388=CARTESIAN_POINT('',(-0.411902844609217,0.00197823449542511,187.245346241891));
#389=CARTESIAN_POINT('',(-0.411902844609171,0.0019782344960208,-0.7286061734524));
#390=CARTESIAN_POINT('',(-0.411902844609171,38.5019782344966,-0.72860617345226));
#391=CARTESIAN_POINT('',(-0.411902844609171,0.00197823449596649,14.2713938265476));
#392=CARTESIAN_POINT('',(-0.411902844609171,0.0019782344960208,-0.728606173452401));
#393=CARTESIAN_POINT('',(-0.411902844609171,0.00197823449592881,24.4057633251855));
#394=(
GEOMETRIC_REPRESENTATION_CONTEXT(3)
GLOBAL_UNCERTAINTY_ASSIGNED_CONTEXT((#395))
GLOBAL_UNIT_ASSIGNED_CONTEXT((#401,#397,#396))
REPRESENTATION_CONTEXT('722','TOP_LEVEL_ASSEMBLY_PART')
);
#395=UNCERTAINTY_MEASURE_WITH_UNIT(LENGTH_MEASURE(0.0254),#401,
'DISTANCE_ACCURACY_VALUE','Maximum Tolerance applied to model');
#396=(
NAMED_UNIT(*)
SI_UNIT($,.STERADIAN.)
SOLID_ANGLE_UNIT()
);
#397=(
CONVERSION_BASED_UNIT('DEGREE',#399)
NAMED_UNIT(#398)
PLANE_ANGLE_UNIT()
);
#398=DIMENSIONAL_EXPONENTS(0.,0.,0.,0.,0.,0.,0.);
#399=PLANE_ANGLE_MEASURE_WITH_UNIT(PLANE_ANGLE_MEASURE(0.0174532925),#400);
#400=(
NAMED_UNIT(*)
PLANE_ANGLE_UNIT()
SI_UNIT($,.RADIAN.)
);
#401=(
LENGTH_UNIT()
NAMED_UNIT(*)
SI_UNIT(.MILLI.,.METRE.)
);
ENDSEC;
END-ISO-10303-21;
